Author Topic: Bass riffs  (Read 1494 times)

Offline rock.freak667

  • Gunslinger
  • ****
Does anyone know any cool bass riffs?
All my book really has is
E|--0-0-4-4--------------------------------------------------------
A|------------2-2-4-2---0-0-4-4----------------------------------
G|-----------------------------------2-2-4-2--0-0-4-4------------
D|---------------------------------------------------------2-2-4-2-

and
E|--3----------------
A|-----5----5-------
G|---5---3---3--5--
D|------------------
and then just to move it down 2 frets in the second one

Offline Captain Tophat

  • Sniper Assassin
  • *****
  • Official Stamper Out of Idiots
random riffs, I'm not sure, but check tab sites like www.guitarmasta.com an check in the misc. category